  0
SECTION
  2
HEADER
  9
$ACADVER
  1
AC1018
  9
$HANDSEED
  5
FFFFFF
  9
$EXTMAX
 10
7592443.62000000011
 20
5728116.3200000003
 30
1000000.00
  9
$EXTMIN
 10
7589571.44000000041
 20
5724806.87999999989
 30
0.00
  9
$LIMMIN
 10
7589571.44000000041
 20
5724806.87999999989
  9
$LIMMAX
 10
7592443.62000000011
 20
5728116.3200000003
  9
$DIMASZ
 40
2.5
  9
$DIMGAP
 40
0.625
  9
$INSUNITS
 70
6
  9
$MEASUREMENT
 70
1
  9
$DIMEXO
 40
0.625
  9
$DIMTXT
 40
2.5
  9
$DIMSTYLE
  2
Standard
  9
$PLIMMIN
 10
0.0
 20
0.0
  9
$PLIMMAX
 10
210.0
 20
297.0
  9
$DIMEXE
 40
1.25
  9
$TEXTSIZE
 40
2.5
  9
$TEXTSTYLE
  7
Standard
  9
$LWDISPLAY
290
1
  9
$TDCREATE
 40
45826.609025324
  9
$TDUCREATE
 40
45826.525691991
  9
$TDUPDATE
 40
45826.609025324
  9
$TDUUPDATE
 40
45826.525691991
  9
$TDINDWG
 40
0.0
  9
$TDUSRTIMER
 40
0.0
  9
$USRTIMER
 70
1
  0
ENDSEC
  0
SECTION
  2
CLASSES
  0
CLASS
  1
WIPEOUT
  2
AcDbWipeout
  3
WipeOut
 90
127
 91
1
280
0
281
1
  0
CLASS
  1
WIPEOUTVARIABLES
  2
AcDbWipeoutVariables
  3
WipeOut
 90
0
 91
1
280
0
281
0
  0
ENDSEC
  0
SECTION
  2
TABLES
  0
TABLE
  2
VPORT
  5
1
100
AcDbSymbolTable
 70
1
  0
VPORT
  5
2
100
AcDbSymbolTableRecord
100
AcDbViewportTableRecord
  2
*ACTIVE
 70
0
 10
0.0
 20
0.0
 11
1.0
 21
1.0
 12
7591007.53
 22
5726461.60
 13
0.0
 23
0.0
 14
1.0
 24
1.0
 15
0.0
 25
0.0
 16
0.0
 26
0.0
 36
1.0
 17
0.0
 27
0.0
 37
0.0
 40
3309.44
 41
0.87
 42
50.0
 43
0.0
 44
0.0
 50
0.0
 51
0.0
 71
0
 72
100
 73
1
 74
1
 75
0
 76
0
 77
0
 78
0
  0
ENDTAB
  0
TABLE
  2
LTYPE
  5
3
100
AcDbSymbolTable
 70
3
  0
LTYPE
  5
4
100
AcDbSymbolTableRecord
100
AcDbLinetypeTableRecord
  2
ByBlock
 70
0
  3

 72
65
 73
0
 40
0.0
  0
LTYPE
  5
5
100
AcDbSymbolTableRecord
100
AcDbLinetypeTableRecord
  2
ByLayer
 70
0
  3

 72
65
 73
0
 40
0.0
  0
LTYPE
  5
6
100
AcDbSymbolTableRecord
100
AcDbLinetypeTableRecord
  2
CONTINUOUS
 70
0
  3
Solid line
 72
65
 73
0
 40
0.0
  0
ENDTAB
  0
TABLE
  2
LAYER
  5
7
100
AcDbSymbolTable
 70
2
  0
LAYER
  5
8
100
AcDbSymbolTableRecord
100
AcDbLayerTableRecord
  2
0
 70
0
 62
7
  6
CONTINUOUS
370
18
390
9
  0
LAYER
  5
A
100
AcDbSymbolTableRecord
100
AcDbLayerTableRecord
  2
CZERWONY
 70
0
 62
1
  6
CONTINUOUS
370
18
390
9
  0
ENDTAB
  0
TABLE
  2
STYLE
  5
B
100
AcDbSymbolTable
 70
2
  0
STYLE
  5
C
100
AcDbSymbolTableRecord
100
AcDbTextStyleTableRecord
  2
STANDARD
 70
0
 40
0.0
 41
1.0
 50
0.0
 71
0
  3
simplex.shx
  4

  0
STYLE
  5
D
100
AcDbSymbolTableRecord
100
AcDbTextStyleTableRecord
  2
STANDARD_ITALIC
 70
0
 40
0.0
 41
1.0
 50
15.0
 71
0
  3
simplex.shx
  4

  0
ENDTAB
  0
TABLE
  2
VIEW
  5
E
100
AcDbSymbolTable
 70
0
  0
ENDTAB
  0
TABLE
  2
UCS
  5
F
100
AcDbSymbolTable
 70
0
  0
ENDTAB
  0
TABLE
  2
APPID
  5
10
100
AcDbSymbolTable
 70
1
  0
APPID
  5
11
100
AcDbSymbolTableRecord
100
AcDbRegAppTableRecord
  2
ACAD
 70
0
  0
ENDTAB
  0
TABLE
  2
DIMSTYLE
  5
12
100
AcDbSymbolTable
 70
1
100
AcDbDimStyleTable
  0
DIMSTYLE
105
13
100
AcDbSymbolTableRecord
100
AcDbDimStyleTableRecord
  2
Standard
 70
0
340
C
  0
ENDTAB
  0
TABLE
  2
BLOCK_RECORD
  5
14
100
AcDbSymbolTable
 70
2
  0
BLOCK_RECORD
  5
15
100
AcDbSymbolTableRecord
100
AcDbBlockTableRecord
  2
*Model_Space
340
16
  0
BLOCK_RECORD
  5
17
100
AcDbSymbolTableRecord
100
AcDbBlockTableRecord
  2
*Paper_Space
340
18
  0
ENDTAB
  0
ENDSEC
  0
SECTION
  2
BLOCKS
  0
BLOCK
  5
19
100
AcDbEntity
  8
0
100
AcDbBlockBegin
  2
*Model_Space
 70
0
 10
0.0
 20
0.0
 30
0.0
  3
*Model_Space
  1

  0
ENDBLK
  5
1A
100
AcDbEntity
  8
0
100
AcDbBlockEnd
  0
BLOCK
  5
1B
100
AcDbEntity
 67
1
  8
0
100
AcDbBlockBegin
  2
*Paper_Space
 70
0
 10
0.0
 20
0.0
 30
0.0
  3
*Paper_Space
  1

  0
ENDBLK
  5
1C
100
AcDbEntity
 67
1
  8
0
100
AcDbBlockEnd
  0
ENDSEC
  0
SECTION
  2
ENTITIES
  0
POLYLINE
  5
1D
100
AcDbEntity
  8
CZERWONY
  6
CONTINUOUS
370
18
100
AcDb2dPolyline
 66
1
 70
128
  0
VERTEX
  5
1E
100
AcDbEntity
  8
CZERWONY
100
AcDbVertex
100
AcDb2dVertex
 10
7590135.76999999955
 20
5727211.95000000019
  0
VERTEX
  5
1F
100
AcDbEntity
  8
CZERWONY
100
AcDbVertex
100
AcDb2dVertex
 10
7590249.58000000007
 20
5727408.00999999978
  0
VERTEX
  5
20
100
AcDbEntity
  8
CZERWONY
100
AcDbVertex
100
AcDb2dVertex
 10
7590205.95999999996
 20
5727428.46999999974
  0
VERTEX
  5
21
100
AcDbEntity
  8
CZERWONY
100
AcDbVertex
100
AcDb2dVertex
 10
7590093.30999999959
 20
5727232.58000000007
  0
VERTEX
  5
22
100
AcDbEntity
  8
CZERWONY
100
AcDbVertex
100
AcDb2dVertex
 10
7590114.90000000037
 20
5727222.08000000007
  0
VERTEX
  5
23
100
AcDbEntity
  8
CZERWONY
100
AcDbVertex
100
AcDb2dVertex
 10
7590122.0
 20
5727218.62999999989
  0
VERTEX
  5
24
100
AcDbEntity
  8
CZERWONY
100
AcDbVertex
100
AcDb2dVertex
 10
7590135.76999999955
 20
5727211.95000000019
  0
SEQEND
  5
25
100
AcDbEntity
  8
CZERWONY
  0
POLYLINE
  5
26
100
AcDbEntity
  8
CZERWONY
  6
CONTINUOUS
370
18
100
AcDb2dPolyline
 66
1
 70
129
  0
VERTEX
  5
27
100
AcDbEntity
  8
CZERWONY
100
AcDbVertex
100
AcDb2dVertex
 10
7590317.56000201497
 20
5727380.50999978185
  0
VERTEX
  5
28
100
AcDbEntity
  8
CZERWONY
100
AcDbVertex
100
AcDb2dVertex
 10
7590289.85000201408
 20
5727393.49999978114
  0
VERTEX
  5
29
100
AcDbEntity
  8
CZERWONY
100
AcDbVertex
100
AcDb2dVertex
 10
7590328.68000201602
 20
5727483.85999978147
  0
VERTEX
  5
2A
100
AcDbEntity
  8
CZERWONY
100
AcDbVertex
100
AcDb2dVertex
 10
7590332.93000201602
 20
5727481.84999978077
  0
VERTEX
  5
2B
100
AcDbEntity
  8
CZERWONY
100
AcDbVertex
100
AcDb2dVertex
 10
7590360.71000201814
 20
5727468.77999978233
  0
SEQEND
  5
2C
100
AcDbEntity
  8
CZERWONY
  0
POLYLINE
  5
2D
100
AcDbEntity
  8
0
  6
CONTINUOUS
370
18
100
AcDb2dPolyline
 66
1
 70
128
  0
VERTEX
  5
2E
100
AcDbEntity
  8
0
100
AcDbVertex
100
AcDb2dVertex
 10
7590262.08000000007
 20
5727515.20999999996
  0
VERTEX
  5
2F
100
AcDbEntity
  8
0
100
AcDbVertex
100
AcDb2dVertex
 10
7590278.45999999996
 20
5727507.5
  0
VERTEX
  5
30
100
AcDbEntity
  8
0
100
AcDbVertex
100
AcDb2dVertex
 10
7590348.79000000004
 20
5727668.26999999955
  0
VERTEX
  5
31
100
AcDbEntity
  8
0
100
AcDbVertex
100
AcDb2dVertex
 10
7590322.5
 20
5727680.74000000022
  0
VERTEX
  5
32
100
AcDbEntity
  8
0
100
AcDbVertex
100
AcDb2dVertex
 10
7590252.12000000011
 20
5727519.88999999966
  0
VERTEX
  5
33
100
AcDbEntity
  8
0
100
AcDbVertex
100
AcDb2dVertex
 10
7590262.08000000007
 20
5727515.20999999996
  0
SEQEND
  5
34
100
AcDbEntity
  8
0
  0
POLYLINE
  5
35
100
AcDbEntity
  8
0
  6
CONTINUOUS
370
18
100
AcDb2dPolyline
 66
1
 70
128
  0
VERTEX
  5
36
100
AcDbEntity
  8
0
100
AcDbVertex
100
AcDb2dVertex
 10
7590325.33000000008
 20
5727687.21999999974
  0
VERTEX
  5
37
100
AcDbEntity
  8
0
100
AcDbVertex
100
AcDb2dVertex
 10
7590351.62000000011
 20
5727674.74000000022
  0
VERTEX
  5
38
100
AcDbEntity
  8
0
100
AcDbVertex
100
AcDb2dVertex
 10
7590472.01999999955
 20
5727957.75
  0
VERTEX
  5
39
100
AcDbEntity
  8
0
100
AcDbVertex
100
AcDb2dVertex
 10
7590446.44000000041
 20
5727963.29999999981
  0
VERTEX
  5
3A
100
AcDbEntity
  8
0
100
AcDbVertex
100
AcDb2dVertex
 10
7590325.33000000008
 20
5727687.21999999974
  0
SEQEND
  5
3B
100
AcDbEntity
  8
0
  0
POLYLINE
  5
3C
100
AcDbEntity
  8
0
  6
CONTINUOUS
370
18
100
AcDb2dPolyline
 66
1
 70
128
  0
VERTEX
  5
3D
100
AcDbEntity
  8
0
100
AcDbVertex
100
AcDb2dVertex
 10
7590360.70999999996
 20
5727468.78000000026
  0
VERTEX
  5
3E
100
AcDbEntity
  8
0
100
AcDbVertex
100
AcDb2dVertex
 10
7590332.9299999997
 20
5727481.84999999963
  0
VERTEX
  5
3F
100
AcDbEntity
  8
0
100
AcDbVertex
100
AcDb2dVertex
 10
7590328.6799999997
 20
5727483.86000000034
  0
VERTEX
  5
40
100
AcDbEntity
  8
0
100
AcDbVertex
100
AcDb2dVertex
 10
7590289.84999999963
 20
5727393.5
  0
VERTEX
  5
41
100
AcDbEntity
  8
0
100
AcDbVertex
100
AcDb2dVertex
 10
7590317.55999999959
 20
5727380.50999999978
  0
VERTEX
  5
42
100
AcDbEntity
  8
0
100
AcDbVertex
100
AcDb2dVertex
 10
7590360.70999999996
 20
5727468.78000000026
  0
SEQEND
  5
43
100
AcDbEntity
  8
0
  0
POLYLINE
  5
44
100
AcDbEntity
  8
0
  6
CONTINUOUS
370
18
100
AcDb2dPolyline
 66
1
 70
128
  0
VERTEX
  5
45
100
AcDbEntity
  8
0
100
AcDbVertex
100
AcDb2dVertex
 10
7590038.74000000022
 20
5727829.09999999963
  0
VERTEX
  5
46
100
AcDbEntity
  8
0
100
AcDbVertex
100
AcDb2dVertex
 10
7590161.11000000034
 20
5728099.19000000041
  0
VERTEX
  5
47
100
AcDbEntity
  8
0
100
AcDbVertex
100
AcDb2dVertex
 10
7590138.80999999959
 20
5728116.3200000003
  0
VERTEX
  5
48
100
AcDbEntity
  8
0
100
AcDbVertex
100
AcDb2dVertex
 10
7590014.48000000045
 20
5727840.70000000019
  0
VERTEX
  5
49
100
AcDbEntity
  8
0
100
AcDbVertex
100
AcDb2dVertex
 10
7590038.74000000022
 20
5727829.09999999963
  0
SEQEND
  5
4A
100
AcDbEntity
  8
0
  0
POLYLINE
  5
4B
100
AcDbEntity
  8
0
  6
CONTINUOUS
370
18
100
AcDb2dPolyline
 66
1
 70
128
  0
VERTEX
  5
4C
100
AcDbEntity
  8
0
100
AcDbVertex
100
AcDb2dVertex
 10
7590169.29999999981
 20
5728092.90000000037
  0
VERTEX
  5
4D
100
AcDbEntity
  8
0
100
AcDbVertex
100
AcDb2dVertex
 10
7590161.11000000034
 20
5728099.19000000041
  0
VERTEX
  5
4E
100
AcDbEntity
  8
0
100
AcDbVertex
100
AcDb2dVertex
 10
7590038.74000000022
 20
5727829.09999999963
  0
VERTEX
  5
4F
100
AcDbEntity
  8
0
100
AcDbVertex
100
AcDb2dVertex
 10
7590047.58999999985
 20
5727824.87000000011
  0
VERTEX
  5
50
100
AcDbEntity
  8
0
100
AcDbVertex
100
AcDb2dVertex
 10
7590169.29999999981
 20
5728092.90000000037
  0
SEQEND
  5
51
100
AcDbEntity
  8
0
  0
POLYLINE
  5
52
100
AcDbEntity
  8
0
  6
CONTINUOUS
370
18
100
AcDb2dPolyline
 66
1
 70
128
  0
VERTEX
  5
53
100
AcDbEntity
  8
0
100
AcDbVertex
100
AcDb2dVertex
 10
7589961.84999999963
 20
5727657.12999999989
  0
VERTEX
  5
54
100
AcDbEntity
  8
0
100
AcDbVertex
100
AcDb2dVertex
 10
7590035.76999999955
 20
5727822.45000000019
  0
VERTEX
  5
55
100
AcDbEntity
  8
0
100
AcDbVertex
100
AcDb2dVertex
 10
7590011.74000000022
 20
5727834.04999999981
  0
VERTEX
  5
56
100
AcDbEntity
  8
0
100
AcDbVertex
100
AcDb2dVertex
 10
7589937.26999999955
 20
5727668.75999999978
  0
VERTEX
  5
57
100
AcDbEntity
  8
0
100
AcDbVertex
100
AcDb2dVertex
 10
7589942.41000000015
 20
5727666.30999999959
  0
VERTEX
  5
58
100
AcDbEntity
  8
0
100
AcDbVertex
100
AcDb2dVertex
 10
7589961.84999999963
 20
5727657.12999999989
  0
SEQEND
  5
59
100
AcDbEntity
  8
0
  0
POLYLINE
  5
5A
100
AcDbEntity
  8
0
  6
CONTINUOUS
370
18
100
AcDb2dPolyline
 66
1
 70
128
  0
VERTEX
  5
5B
100
AcDbEntity
  8
0
100
AcDbVertex
100
AcDb2dVertex
 10
7590044.70000000019
 20
5727818.13999999966
  0
VERTEX
  5
5C
100
AcDbEntity
  8
0
100
AcDbVertex
100
AcDb2dVertex
 10
7590035.76999999955
 20
5727822.45000000019
  0
VERTEX
  5
5D
100
AcDbEntity
  8
0
100
AcDbVertex
100
AcDb2dVertex
 10
7589961.84999999963
 20
5727657.12999999989
  0
VERTEX
  5
5E
100
AcDbEntity
  8
0
100
AcDbVertex
100
AcDb2dVertex
 10
7589970.53000000026
 20
5727653.01999999955
  0
VERTEX
  5
5F
100
AcDbEntity
  8
0
100
AcDbVertex
100
AcDb2dVertex
 10
7590044.70000000019
 20
5727818.13999999966
  0
SEQEND
  5
60
100
AcDbEntity
  8
0
  0
POLYLINE
  5
61
100
AcDbEntity
  8
0
  6
CONTINUOUS
370
18
100
AcDb2dPolyline
 66
1
 70
128
  0
VERTEX
  5
62
100
AcDbEntity
  8
0
100
AcDbVertex
100
AcDb2dVertex
 10
7589598.98000000045
 20
5726586.78000000026
  0
VERTEX
  5
63
100
AcDbEntity
  8
0
100
AcDbVertex
100
AcDb2dVertex
 10
7590002.28000000026
 20
5727276.8200000003
  0
VERTEX
  5
64
100
AcDbEntity
  8
0
100
AcDbVertex
100
AcDb2dVertex
 10
7589986.99000000022
 20
5727284.25
  0
VERTEX
  5
65
100
AcDbEntity
  8
0
100
AcDbVertex
100
AcDb2dVertex
 10
7589585.37999999989
 20
5726595.54000000004
  0
VERTEX
  5
66
100
AcDbEntity
  8
0
100
AcDbVertex
100
AcDb2dVertex
 10
7589598.98000000045
 20
5726586.78000000026
  0
SEQEND
  5
67
100
AcDbEntity
  8
0
  0
POLYLINE
  5
68
100
AcDbEntity
  8
0
  6
CONTINUOUS
370
18
100
AcDb2dPolyline
 66
1
 70
128
  0
VERTEX
  5
69
100
AcDbEntity
  8
0
100
AcDbVertex
100
AcDb2dVertex
 10
7589585.37999999989
 20
5726595.54000000004
  0
VERTEX
  5
6A
100
AcDbEntity
  8
0
100
AcDbVertex
100
AcDb2dVertex
 10
7589986.99000000022
 20
5727284.25
  0
VERTEX
  5
6B
100
AcDbEntity
  8
0
100
AcDbVertex
100
AcDb2dVertex
 10
7589981.5
 20
5727286.91000000015
  0
VERTEX
  5
6C
100
AcDbEntity
  8
0
100
AcDbVertex
100
AcDb2dVertex
 10
7589973.58999999985
 20
5727290.75999999978
  0
VERTEX
  5
6D
100
AcDbEntity
  8
0
100
AcDbVertex
100
AcDb2dVertex
 10
7589971.79000000004
 20
5727291.62999999989
  0
VERTEX
  5
6E
100
AcDbEntity
  8
0
100
AcDbVertex
100
AcDb2dVertex
 10
7589571.44000000041
 20
5726604.51999999955
  0
VERTEX
  5
6F
100
AcDbEntity
  8
0
100
AcDbVertex
100
AcDb2dVertex
 10
7589582.33999999985
 20
5726597.50999999978
  0
VERTEX
  5
70
100
AcDbEntity
  8
0
100
AcDbVertex
100
AcDb2dVertex
 10
7589585.37999999989
 20
5726595.54000000004
  0
SEQEND
  5
71
100
AcDbEntity
  8
0
  0
POLYLINE
  5
72
100
AcDbEntity
  8
0
  6
CONTINUOUS
370
18
100
AcDb2dPolyline
 66
1
 70
129
  0
VERTEX
  5
73
100
AcDbEntity
  8
0
100
AcDbVertex
100
AcDb2dVertex
 10
7589585.37984860036
 20
5726595.548579772
  0
VERTEX
  5
74
100
AcDbEntity
  8
0
100
AcDbVertex
100
AcDb2dVertex
 10
7589986.98984790593
 20
5727284.25857832935
  0
VERTEX
  5
75
100
AcDbEntity
  8
0
100
AcDbVertex
100
AcDb2dVertex
 10
7590002.27984787989
 20
5727276.82857833616
  0
VERTEX
  5
76
100
AcDbEntity
  8
0
100
AcDbVertex
100
AcDb2dVertex
 10
7589598.97984857671
 20
5726586.78857978433
  0
SEQEND
  5
77
100
AcDbEntity
  8
0
  0
POLYLINE
  5
78
100
AcDbEntity
  8
0
  6
CONTINUOUS
370
18
100
AcDb2dPolyline
 66
1
 70
129
  0
VERTEX
  5
79
100
AcDbEntity
  8
0
100
AcDbVertex
100
AcDb2dVertex
 10
7589582.33984860498
 20
5726597.51857976988
  0
VERTEX
  5
7A
100
AcDbEntity
  8
0
100
AcDbVertex
100
AcDb2dVertex
 10
7589571.43984862417
 20
5726604.52857976034
  0
VERTEX
  5
7B
100
AcDbEntity
  8
0
100
AcDbVertex
100
AcDb2dVertex
 10
7589971.78984793089
 20
5727291.63857831899
  0
VERTEX
  5
7C
100
AcDbEntity
  8
0
100
AcDbVertex
100
AcDb2dVertex
 10
7589973.58984792698
 20
5727290.76857832074
  0
VERTEX
  5
7D
100
AcDbEntity
  8
0
100
AcDbVertex
100
AcDb2dVertex
 10
7589981.49984791409
 20
5727286.91857832577
  0
VERTEX
  5
7E
100
AcDbEntity
  8
0
100
AcDbVertex
100
AcDb2dVertex
 10
7589986.98984790593
 20
5727284.25857832935
  0
VERTEX
  5
7F
100
AcDbEntity
  8
0
100
AcDbVertex
100
AcDb2dVertex
 10
7589585.37984860036
 20
5726595.548579772
  0
SEQEND
  5
80
100
AcDbEntity
  8
0
  0
POLYLINE
  5
81
100
AcDbEntity
  8
0
  6
CONTINUOUS
370
18
100
AcDb2dPolyline
 66
1
 70
129
  0
VERTEX
  5
82
100
AcDbEntity
  8
0
100
AcDbVertex
100
AcDb2dVertex
 10
7590253.90000201296
 20
5727410.35999978054
  0
VERTEX
  5
83
100
AcDbEntity
  8
0
100
AcDbVertex
100
AcDb2dVertex
 10
7590286.2300020149
 20
5727395.2099997811
  0
VERTEX
  5
84
100
AcDbEntity
  8
0
100
AcDbVertex
100
AcDb2dVertex
 10
7590289.85000201408
 20
5727393.49999978114
  0
VERTEX
  5
85
100
AcDbEntity
  8
0
100
AcDbVertex
100
AcDb2dVertex
 10
7590317.56000201497
 20
5727380.50999978185
  0
VERTEX
  5
86
100
AcDbEntity
  8
0
100
AcDbVertex
100
AcDb2dVertex
 10
7590349.61000201758
 20
5727365.47999978066
  0
VERTEX
  5
87
100
AcDbEntity
  8
0
100
AcDbVertex
100
AcDb2dVertex
 10
7590381.12000201922
 20
5727350.69999978133
  0
VERTEX
  5
88
100
AcDbEntity
  8
0
100
AcDbVertex
100
AcDb2dVertex
 10
7590412.99000202026
 20
5727335.75999977998
  0
VERTEX
  5
89
100
AcDbEntity
  8
0
100
AcDbVertex
100
AcDb2dVertex
 10
7590480.57000202313
 20
5727303.919999782
  0
VERTEX
  5
8A
100
AcDbEntity
  8
0
100
AcDbVertex
100
AcDb2dVertex
 10
7590490.80000202265
 20
5727299.11999978032
  0
VERTEX
  5
8B
100
AcDbEntity
  8
0
100
AcDbVertex
100
AcDb2dVertex
 10
7590510.88000202458
 20
5727289.64999978058
  0
VERTEX
  5
8C
100
AcDbEntity
  8
0
100
AcDbVertex
100
AcDb2dVertex
 10
7590541.37000202574
 20
5727275.28999978025
  0
VERTEX
  5
8D
100
AcDbEntity
  8
0
100
AcDbVertex
100
AcDb2dVertex
 10
7590607.06000202894
 20
5727244.34999977984
  0
VERTEX
  5
8E
100
AcDbEntity
  8
0
100
AcDbVertex
100
AcDb2dVertex
 10
7590617.73000202887
 20
5727239.31999977957
  0
VERTEX
  5
8F
100
AcDbEntity
  8
0
100
AcDbVertex
100
AcDb2dVertex
 10
7590639.63000203017
 20
5727229.00999977905
  0
VERTEX
  5
90
100
AcDbEntity
  8
0
100
AcDbVertex
100
AcDb2dVertex
 10
7590671.83000203129
 20
5727213.82999977935
  0
VERTEX
  5
91
100
AcDbEntity
  8
0
100
AcDbVertex
100
AcDb2dVertex
 10
7590687.57000203244
 20
5727206.41999978013
  0
VERTEX
  5
92
100
AcDbEntity
  8
0
100
AcDbVertex
100
AcDb2dVertex
 10
7590704.58000203315
 20
5727198.40999978036
  0
VERTEX
  5
93
100
AcDbEntity
  8
0
100
AcDbVertex
100
AcDb2dVertex
 10
7590736.35000203364
 20
5727183.44999978039
  0
VERTEX
  5
94
100
AcDbEntity
  8
0
100
AcDbVertex
100
AcDb2dVertex
 10
7590768.46000203583
 20
5727168.31999978051
  0
VERTEX
  5
95
100
AcDbEntity
  8
0
100
AcDbVertex
100
AcDb2dVertex
 10
7590801.66000203788
 20
5727152.67999978084
  0
VERTEX
  5
96
100
AcDbEntity
  8
0
100
AcDbVertex
100
AcDb2dVertex
 10
7590836.77000203822
 20
5727136.13999977987
  0
VERTEX
  5
97
100
AcDbEntity
  8
0
100
AcDbVertex
100
AcDb2dVertex
 10
7590853.96000203956
 20
5727128.03999977838
  0
VERTEX
  5
98
100
AcDbEntity
  8
0
100
AcDbVertex
100
AcDb2dVertex
 10
7590890.5100020403
 20
5727110.82999977842
  0
VERTEX
  5
99
100
AcDbEntity
  8
0
100
AcDbVertex
100
AcDb2dVertex
 10
7590929.50000204332
 20
5727092.44999978039
  0
VERTEX
  5
9A
100
AcDbEntity
  8
0
100
AcDbVertex
100
AcDb2dVertex
 10
7590954.03000204358
 20
5727080.89999978058
  0
VERTEX
  5
9B
100
AcDbEntity
  8
0
100
AcDbVertex
100
AcDb2dVertex
 10
7591000.43000204582
 20
5727059.25999977905
  0
VERTEX
  5
9C
100
AcDbEntity
  8
0
100
AcDbVertex
100
AcDb2dVertex
 10
7591035.71000204794
 20
5727042.79999977909
  0
VERTEX
  5
9D
100
AcDbEntity
  8
0
100
AcDbVertex
100
AcDb2dVertex
 10
7591032.78000204824
 20
5727039.75999977905
  0
VERTEX
  5
9E
100
AcDbEntity
  8
0
100
AcDbVertex
100
AcDb2dVertex
 10
7590984.4500020463
 20
5727062.30999977887
  0
VERTEX
  5
9F
100
AcDbEntity
  8
0
100
AcDbVertex
100
AcDb2dVertex
 10
7590946.19000204466
 20
5727080.16999978106
  0
VERTEX
  5
A0
100
AcDbEntity
  8
0
100
AcDbVertex
100
AcDb2dVertex
 10
7590402.34000201989
 20
5727336.35999977868
  0
VERTEX
  5
A1
100
AcDbEntity
  8
0
100
AcDbVertex
100
AcDb2dVertex
 10
7590394.28000201937
 20
5727340.12999978103
  0
VERTEX
  5
A2
100
AcDbEntity
  8
0
100
AcDbVertex
100
AcDb2dVertex
 10
7590387.49000201933
 20
5727343.31999978144
  0
VERTEX
  5
A3
100
AcDbEntity
  8
0
100
AcDbVertex
100
AcDb2dVertex
 10
7590379.98000201862
 20
5727346.83999977913
  0
VERTEX
  5
A4
100
AcDbEntity
  8
0
100
AcDbVertex
100
AcDb2dVertex
 10
7590376.62000201829
 20
5727348.41999978106
  0
VERTEX
  5
A5
100
AcDbEntity
  8
0
100
AcDbVertex
100
AcDb2dVertex
 10
7590373.18000201788
 20
5727350.0299997814
  0
VERTEX
  5
A6
100
AcDbEntity
  8
0
100
AcDbVertex
100
AcDb2dVertex
 10
7590369.74000201747
 20
5727351.64999978244
  0
VERTEX
  5
A7
100
AcDbEntity
  8
0
100
AcDbVertex
100
AcDb2dVertex
 10
7590360.50000201724
 20
5727355.97999978066
  0
VERTEX
  5
A8
100
AcDbEntity
  8
0
100
AcDbVertex
100
AcDb2dVertex
 10
7590352.00000201724
 20
5727359.97999978159
  0
VERTEX
  5
A9
100
AcDbEntity
  8
0
100
AcDbVertex
100
AcDb2dVertex
 10
7590343.0200020168
 20
5727364.169999782
  0
VERTEX
  5
AA
100
AcDbEntity
  8
0
100
AcDbVertex
100
AcDb2dVertex
 10
7590333.42000201624
 20
5727368.66999978013
  0
VERTEX
  5
AB
100
AcDbEntity
  8
0
100
AcDbVertex
100
AcDb2dVertex
 10
7590316.85000201594
 20
5727376.44999978133
  0
VERTEX
  5
AC
100
AcDbEntity
  8
0
100
AcDbVertex
100
AcDb2dVertex
 10
7590298.020002014
 20
5727385.28999978211
  0
VERTEX
  5
AD
100
AcDbEntity
  8
0
100
AcDbVertex
100
AcDb2dVertex
 10
7590289.60000201408
 20
5727389.23999978229
  0
VERTEX
  5
AE
100
AcDbEntity
  8
0
100
AcDbVertex
100
AcDb2dVertex
 10
7590285.9800020149
 20
5727390.93999978155
  0
VERTEX
  5
AF
100
AcDbEntity
  8
0
100
AcDbVertex
100
AcDb2dVertex
 10
7590273.30000201333
 20
5727396.87999978289
  0
VERTEX
  5
B0
100
AcDbEntity
  8
0
100
AcDbVertex
100
AcDb2dVertex
 10
7590260.62000201363
 20
5727402.81999978144
  0
VERTEX
  5
B1
100
AcDbEntity
  8
0
100
AcDbVertex
100
AcDb2dVertex
 10
7590249.58000201266
 20
5727408.00999977998
  0
VERTEX
  5
B2
100
AcDbEntity
  8
0
100
AcDbVertex
100
AcDb2dVertex
 10
7590205.96000201069
 20
5727428.46999978088
  0
VERTEX
  5
B3
100
AcDbEntity
  8
0
100
AcDbVertex
100
AcDb2dVertex
 10
7590162.34000200871
 20
5727448.91999978106
  0
VERTEX
  5
B4
100
AcDbEntity
  8
0
100
AcDbVertex
100
AcDb2dVertex
 10
7590158.6500020083
 20
5727450.65999978222
  0
VERTEX
  5
B5
100
AcDbEntity
  8
0
100
AcDbVertex
100
AcDb2dVertex
 10
7590136.50000200793
 20
5727461.04999978095
  0
VERTEX
  5
B6
100
AcDbEntity
  8
0
100
AcDbVertex
100
AcDb2dVertex
 10
7590131.79000200704
 20
5727463.25999978185
  0
VERTEX
  5
B7
100
AcDbEntity
  8
0
100
AcDbVertex
100
AcDb2dVertex
 10
7590121.09000200685
 20
5727468.26999978069
  0
VERTEX
  5
B8
100
AcDbEntity
  8
0
100
AcDbVertex
100
AcDb2dVertex
 10
7590095.44000200555
 20
5727480.29999978188
  0
VERTEX
  5
B9
100
AcDbEntity
  8
0
100
AcDbVertex
100
AcDb2dVertex
 10
7590087.84000200499
 20
5727483.86999978125
  0
VERTEX
  5
BA
100
AcDbEntity
  8
0
100
AcDbVertex
100
AcDb2dVertex
 10
7590075.15000200551
 20
5727489.82999978214
  0
VERTEX
  5
BB
100
AcDbEntity
  8
0
100
AcDbVertex
100
AcDb2dVertex
 10
7590068.72000200488
 20
5727492.82999978308
  0
VERTEX
  5
BC
100
AcDbEntity
  8
0
100
AcDbVertex
100
AcDb2dVertex
 10
7590064.01000200398
 20
5727495.03999978118
  0
VERTEX
  5
BD
100
AcDbEntity
  8
0
100
AcDbVertex
100
AcDb2dVertex
 10
7590055.85000200383
 20
5727498.86999978218
  0
VERTEX
  5
BE
100
AcDbEntity
  8
0
100
AcDbVertex
100
AcDb2dVertex
 10
7590041.18000200391
 20
5727505.75999978185
  0
VERTEX
  5
BF
100
AcDbEntity
  8
0
100
AcDbVertex
100
AcDb2dVertex
 10
7590032.8500020029
 20
5727509.65999978222
  0
VERTEX
  5
C0
100
AcDbEntity
  8
0
100
AcDbVertex
100
AcDb2dVertex
 10
7590028.6000020029
 20
5727511.64999978244
  0
VERTEX
  5
C1
100
AcDbEntity
  8
0
100
AcDbVertex
100
AcDb2dVertex
 10
7590001.52000200096
 20
5727524.35999978147
  0
VERTEX
  5
C2
100
AcDbEntity
  8
0
100
AcDbVertex
100
AcDb2dVertex
 10
7589995.09000200126
 20
5727527.36999978125
  0
VERTEX
  5
C3
100
AcDbEntity
  8
0
100
AcDbVertex
100
AcDb2dVertex
 10
7589988.39000200108
 20
5727530.51999978069
  0
VERTEX
  5
C4
100
AcDbEntity
  8
0
100
AcDbVertex
100
AcDb2dVertex
 10
7589981.60000200011
 20
5727533.71999978088
  0
VERTEX
  5
C5
100
AcDbEntity
  8
0
100
AcDbVertex
100
AcDb2dVertex
 10
7589974.73000200093
 20
5727536.95999978483
  0
VERTEX
  5
C6
100
AcDbEntity
  8
0
100
AcDbVertex
100
AcDb2dVertex
 10
7589968.57000199985
 20
5727539.85999978241
  0
VERTEX
  5
C7
100
AcDbEntity
  8
0
100
AcDbVertex
100
AcDb2dVertex
 10
7589961.50000199955
 20
5727543.18999978341
  0
VERTEX
  5
C8
100
AcDbEntity
  8
0
100
AcDbVertex
100
AcDb2dVertex
 10
7589955.08000199962
 20
5727546.20999978203
  0
VERTEX
  5
C9
100
AcDbEntity
  8
0
100
AcDbVertex
100
AcDb2dVertex
 10
7589948.03000199888
 20
5727549.53999978211
  0
VERTEX
  5
CA
100
AcDbEntity
  8
0
100
AcDbVertex
100
AcDb2dVertex
 10
7589940.87000199873
 20
5727552.89999978151
  0
VERTEX
  5
CB
100
AcDbEntity
  8
0
100
AcDbVertex
100
AcDb2dVertex
 10
7589934.0100019984
 20
5727556.13999977987
  0
VERTEX
  5
CC
100
AcDbEntity
  8
0
100
AcDbVertex
100
AcDb2dVertex
 10
7589919.8000019975
 20
5727562.83999978192
  0
VERTEX
  5
CD
100
AcDbEntity
  8
0
100
AcDbVertex
100
AcDb2dVertex
 10
7589914.28000199795
 20
5727565.43999978248
  0
VERTEX
  5
CE
100
AcDbEntity
  8
0
100
AcDbVertex
100
AcDb2dVertex
 10
7589907.31000199635
 20
5727568.71999978274
  0
VERTEX
  5
CF
100
AcDbEntity
  8
0
100
AcDbVertex
100
AcDb2dVertex
 10
7589900.80000199657
 20
5727571.78999978211
  0
VERTEX
  5
D0
100
AcDbEntity
  8
0
100
AcDbVertex
100
AcDb2dVertex
 10
7589894.28000199702
 20
5727574.86999978218
  0
VERTEX
  5
D1
100
AcDbEntity
  8
0
100
AcDbVertex
100
AcDb2dVertex
 10
7589885.06000199635
 20
5727579.19999978319
  0
VERTEX
  5
D2
100
AcDbEntity
  8
0
100
AcDbVertex
100
AcDb2dVertex
 10
7589876.55000199564
 20
5727583.2099997811
  0
VERTEX
  5
D3
100
AcDbEntity
  8
0
100
AcDbVertex
100
AcDb2dVertex
 10
7589867.05000199471
 20
5727587.68999978434
  0
VERTEX
  5
D4
100
AcDbEntity
  8
0
100
AcDbVertex
100
AcDb2dVertex
 10
7589859.82000199519
 20
5727591.08999978099
  0
VERTEX
  5
D5
100
AcDbEntity
  8
0
100
AcDbVertex
100
AcDb2dVertex
 10
7589853.02000199445
 20
5727594.29999978095
  0
VERTEX
  5
D6
100
AcDbEntity
  8
0
100
AcDbVertex
100
AcDb2dVertex
 10
7589846.24000199512
 20
5727597.49999978207
  0
VERTEX
  5
D7
100
AcDbEntity
  8
0
100
AcDbVertex
100
AcDb2dVertex
 10
7589839.45000199508
 20
5727600.68999978248
  0
VERTEX
  5
D8
100
AcDbEntity
  8
0
100
AcDbVertex
100
AcDb2dVertex
 10
7589826.42000199389
 20
5727606.82999978401
  0
VERTEX
  5
D9
100
AcDbEntity
  8
0
100
AcDbVertex
100
AcDb2dVertex
 10
7589814.29000199307
 20
5727612.54999978002
  0
VERTEX
  5
DA
100
AcDbEntity
  8
0
100
AcDbVertex
100
AcDb2dVertex
 10
7589782.3600019915
 20
5727627.61999978218
  0
VERTEX
  5
DB
100
AcDbEntity
  8
0
100
AcDbVertex
100
AcDb2dVertex
 10
7589774.05000199098
 20
5727631.54999978282
  0
VERTEX
  5
DC
100
AcDbEntity
  8
0
100
AcDbVertex
100
AcDb2dVertex
 10
7589774.31000199169
 20
5727635.84999978077
  0
VERTEX
  5
DD
100
AcDbEntity
  8
0
100
AcDbVertex
100
AcDb2dVertex
 10
7589795.84000199288
 20
5727625.68999978341
  0
VERTEX
  5
DE
100
AcDbEntity
  8
0
100
AcDbVertex
100
AcDb2dVertex
 10
7589816.36000199337
 20
5727615.98999978416
  0
VERTEX
  5
DF
100
AcDbEntity
  8
0
100
AcDbVertex
100
AcDb2dVertex
 10
7589856.80000199471
 20
5727596.92999978084
  0
VERTEX
  5
E0
100
AcDbEntity
  8
0
100
AcDbVertex
100
AcDb2dVertex
 10
7589898.23000199813
 20
5727577.38999978174
  0
VERTEX
  5
E1
100
AcDbEntity
  8
0
100
AcDbVertex
100
AcDb2dVertex
 10
7589930.16000199877
 20
5727562.33999978192
  0
VERTEX
  5
E2
100
AcDbEntity
  8
0
100
AcDbVertex
100
AcDb2dVertex
 10
7589954.13000199944
 20
5727551.02999978326
  0
VERTEX
  5
E3
100
AcDbEntity
  8
0
100
AcDbVertex
100
AcDb2dVertex
 10
7589961.730002
 20
5727547.44999978133
  0
VERTEX
  5
E4
100
AcDbEntity
  8
0
100
AcDbVertex
100
AcDb2dVertex
 10
7589994.48000200186
 20
5727532.00999978092
  0
VERTEX
  5
E5
100
AcDbEntity
  8
0
100
AcDbVertex
100
AcDb2dVertex
 10
7590026.5300020026
 20
5727516.97999978345
  0
VERTEX
  5
E6
100
AcDbEntity
  8
0
100
AcDbVertex
100
AcDb2dVertex
 10
7590068.46000200417
 20
5727497.31999978144
  0
VERTEX
  5
E7
100
AcDbEntity
  8
0
100
AcDbVertex
100
AcDb2dVertex
 10
7590095.99000200629
 20
5727484.40999978036
  0
VERTEX
  5
E8
100
AcDbEntity
  8
0
100
AcDbVertex
100
AcDb2dVertex
 10
7590123.23000200745
 20
5727471.62999978103
  0
VERTEX
  5
E9
100
AcDbEntity
  8
0
100
AcDbVertex
100
AcDb2dVertex
 10
7590155.3900020076
 20
5727456.55999977794
  0
VERTEX
  5
EA
100
AcDbEntity
  8
0
100
AcDbVertex
100
AcDb2dVertex
 10
7590163.08000200894
 20
5727452.94999978226
  0
VERTEX
  5
EB
100
AcDbEntity
  8
0
100
AcDbVertex
100
AcDb2dVertex
 10
7590165.7900020089
 20
5727451.67999978364
  0
VERTEX
  5
EC
100
AcDbEntity
  8
0
100
AcDbVertex
100
AcDb2dVertex
 10
7590188.16000200994
 20
5727441.18999978341
  0
VERTEX
  5
ED
100
AcDbEntity
  8
0
100
AcDbVertex
100
AcDb2dVertex
 10
7590220.85000201035
 20
5727425.85999978334
  0
SEQEND
  5
EE
100
AcDbEntity
  8
0
  0
POLYLINE
  5
EF
100
AcDbEntity
  8
0
  6
CONTINUOUS
370
18
100
AcDb2dPolyline
 66
1
 70
129
  0
VERTEX
  5
F0
100
AcDbEntity
  8
0
100
AcDbVertex
100
AcDb2dVertex
 10
7592421.45000000019
 20
5725440.9299999997
  0
VERTEX
  5
F1
100
AcDbEntity
  8
0
100
AcDbVertex
100
AcDb2dVertex
 10
7592443.62000000011
 20
5725431.54000000004
  0
VERTEX
  5
F2
100
AcDbEntity
  8
0
100
AcDbVertex
100
AcDb2dVertex
 10
7592391.62000000011
 20
5724806.87999999989
  0
VERTEX
  5
F3
100
AcDbEntity
  8
0
100
AcDbVertex
100
AcDb2dVertex
 10
7592380.45999999996
 20
5724807.84999999963
  0
VERTEX
  5
F4
100
AcDbEntity
  8
0
100
AcDbVertex
100
AcDb2dVertex
 10
7592421.91000000015
 20
5725311.99000000022
  0
VERTEX
  5
F5
100
AcDbEntity
  8
0
100
AcDbVertex
100
AcDb2dVertex
 10
7592410.95000000019
 20
5725312.91000000015
  0
SEQEND
  5
F6
100
AcDbEntity
  8
0
  0
POINT
  5
F7
100
AcDbEntity
  8
CZERWONY
100
AcDbPoint
 62
256
 10
7590135.77000200748
 20
5727211.94999978039
  0
POINT
  5
F8
100
AcDbEntity
  8
CZERWONY
100
AcDbPoint
 62
256
 10
7590249.58000201266
 20
5727408.00999977998
  0
POINT
  5
F9
100
AcDbEntity
  8
CZERWONY
100
AcDbPoint
 62
256
 10
7590205.96000201069
 20
5727428.46999978088
  0
POINT
  5
FA
100
AcDbEntity
  8
CZERWONY
100
AcDbPoint
 62
256
 10
7590093.31000200566
 20
5727232.57999978028
  0
POINT
  5
FB
100
AcDbEntity
  8
CZERWONY
100
AcDbPoint
 62
256
 10
7590114.90000200737
 20
5727222.07999978121
  0
POINT
  5
FC
100
AcDbEntity
  8
CZERWONY
100
AcDbPoint
 62
256
 10
7590122.00000200793
 20
5727218.62999978103
  0
POINT
  5
FD
100
AcDbEntity
  8
CZERWONY
100
AcDbPoint
 62
256
 10
7590135.76999999955
 20
5727211.95000000019
  0
POINT
  5
FE
100
AcDbEntity
  8
CZERWONY
100
AcDbPoint
 62
256
 10
7590249.58000000007
 20
5727408.00999999978
  0
POINT
  5
FF
100
AcDbEntity
  8
CZERWONY
100
AcDbPoint
 62
256
 10
7590205.95999999996
 20
5727428.46999999974
  0
POINT
  5
100
100
AcDbEntity
  8
CZERWONY
100
AcDbPoint
 62
256
 10
7590093.30999999959
 20
5727232.58000000007
  0
POINT
  5
101
100
AcDbEntity
  8
CZERWONY
100
AcDbPoint
 62
256
 10
7590114.90000000037
 20
5727222.08000000007
  0
POINT
  5
102
100
AcDbEntity
  8
CZERWONY
100
AcDbPoint
 62
256
 10
7590122.0
 20
5727218.62999999989
  0
POINT
  5
103
100
AcDbEntity
  8
0
100
AcDbPoint
 62
256
 10
7590262.08000201266
 20
5727515.20999978203
  0
POINT
  5
104
100
AcDbEntity
  8
0
100
AcDbPoint
 62
256
 10
7590278.46000201348
 20
5727507.49999978393
  0
POINT
  5
105
100
AcDbEntity
  8
0
100
AcDbPoint
 62
256
 10
7590348.79000201635
 20
5727668.26999978162
  0
POINT
  5
106
100
AcDbEntity
  8
0
100
AcDbPoint
 62
256
 10
7590322.50000201445
 20
5727680.73999978323
  0
POINT
  5
107
100
AcDbEntity
  8
0
100
AcDbPoint
 62
256
 10
7590252.1200020127
 20
5727519.88999978267
  0
POINT
  5
108
100
AcDbEntity
  8
0
100
AcDbPoint
 62
256
 10
7590325.33000201546
 20
5727687.21999978181
  0
POINT
  5
109
100
AcDbEntity
  8
0
100
AcDbPoint
 62
256
 10
7590351.62000201736
 20
5727674.73999978323
  0
POINT
  5
10A
100
AcDbEntity
  8
0
100
AcDbPoint
 62
256
 10
7590472.02000202052
 20
5727957.74999978114
  0
POINT
  5
10B
100
AcDbEntity
  8
0
100
AcDbPoint
 62
256
 10
7590446.44000202045
 20
5727963.29999978188
  0
POINT
  5
10C
100
AcDbEntity
  8
0
100
AcDbPoint
 62
256
 10
7590360.71000201814
 20
5727468.77999978233
  0
POINT
  5
10D
100
AcDbEntity
  8
0
100
AcDbPoint
 62
256
 10
7590332.93000201602
 20
5727481.84999978077
  0
POINT
  5
10E
100
AcDbEntity
  8
0
100
AcDbPoint
 62
256
 10
7590328.68000201602
 20
5727483.85999978147
  0
POINT
  5
10F
100
AcDbEntity
  8
0
100
AcDbPoint
 62
256
 10
7590289.85000201408
 20
5727393.49999978114
  0
POINT
  5
110
100
AcDbEntity
  8
0
100
AcDbPoint
 62
256
 10
7590317.56000201497
 20
5727380.50999978185
  0
POINT
  5
111
100
AcDbEntity
  8
0
100
AcDbPoint
 62
256
 10
7590038.74000200257
 20
5727829.09999978263
  0
POINT
  5
112
100
AcDbEntity
  8
0
100
AcDbPoint
 62
256
 10
7590161.11000200734
 20
5728099.18999978341
  0
POINT
  5
113
100
AcDbEntity
  8
0
100
AcDbPoint
 62
256
 10
7590138.81000200566
 20
5728116.31999978423
  0
POINT
  5
114
100
AcDbEntity
  8
0
100
AcDbPoint
 62
256
 10
7590014.48000200186
 20
5727840.69999978319
  0
POINT
  5
115
100
AcDbEntity
  8
0
100
AcDbPoint
 62
256
 10
7590169.30000200774
 20
5728092.89999978244
  0
POINT
  5
116
100
AcDbEntity
  8
0
100
AcDbPoint
 62
256
 10
7590047.59000200313
 20
5727824.86999978498
  0
POINT
  5
117
100
AcDbEntity
  8
0
100
AcDbPoint
 62
256
 10
7589961.85000200011
 20
5727657.12999978289
  0
POINT
  5
118
100
AcDbEntity
  8
0
100
AcDbPoint
 62
256
 10
7590035.7700020019
 20
5727822.44999978133
  0
POINT
  5
119
100
AcDbEntity
  8
0
100
AcDbPoint
 62
256
 10
7590011.74000200164
 20
5727834.04999978188
  0
POINT
  5
11A
100
AcDbEntity
  8
0
100
AcDbPoint
 62
256
 10
7589937.27000199817
 20
5727668.75999978185
  0
POINT
  5
11B
100
AcDbEntity
  8
0
100
AcDbPoint
 62
256
 10
7589942.41000199877
 20
5727666.30999978166
  0
POINT
  5
11C
100
AcDbEntity
  8
0
100
AcDbPoint
 62
256
 10
7590044.70000200346
 20
5727818.13999978453
  0
POINT
  5
11D
100
AcDbEntity
  8
0
100
AcDbPoint
 62
256
 10
7589970.53000200074
 20
5727653.01999978349
  0
POINT
  5
11E
100
AcDbEntity
  8
0
100
AcDbPoint
 62
256
 10
7589598.98000198603
 20
5726586.77999977861
  0
POINT
  5
11F
100
AcDbEntity
  8
0
100
AcDbPoint
 62
256
 10
7590002.2800020026
 20
5727276.81999977957
  0
POINT
  5
120
100
AcDbEntity
  8
0
100
AcDbPoint
 62
256
 10
7589986.99000200164
 20
5727284.24999978207
  0
POINT
  5
121
100
AcDbEntity
  8
0
100
AcDbPoint
 62
256
 10
7589585.38000198547
 20
5726595.53999978024
  0
POINT
  5
122
100
AcDbEntity
  8
0
100
AcDbPoint
 62
256
 10
7589981.50000200141
 20
5727286.90999978036
  0
POINT
  5
123
100
AcDbEntity
  8
0
100
AcDbPoint
 62
256
 10
7589973.59000200033
 20
5727290.75999978092
  0
POINT
  5
124
100
AcDbEntity
  8
0
100
AcDbPoint
 62
256
 10
7589971.79000200145
 20
5727291.6299997801
  0
POINT
  5
125
100
AcDbEntity
  8
0
100
AcDbPoint
 62
256
 10
7589571.44000198506
 20
5726604.51999977976
  0
POINT
  5
126
100
AcDbEntity
  8
0
100
AcDbPoint
 62
256
 10
7589582.34000198543
 20
5726597.50999977719
  0
POINT
  5
127
100
AcDbEntity
  8
0
100
AcDbPoint
 62
256
 10
7590138.80999999959
 20
5728116.3200000003
  0
POINT
  5
128
100
AcDbEntity
  8
0
100
AcDbPoint
 62
256
 10
7590014.48000000045
 20
5727840.70000000019
  0
POINT
  5
129
100
AcDbEntity
  8
0
100
AcDbPoint
 62
256
 10
7590038.74000000022
 20
5727829.09999999963
  0
POINT
  5
12A
100
AcDbEntity
  8
0
100
AcDbPoint
 62
256
 10
7590161.11000000034
 20
5728099.19000000041
  0
POINT
  5
12B
100
AcDbEntity
  8
0
100
AcDbPoint
 62
256
 10
7590169.29999999981
 20
5728092.90000000037
  0
POINT
  5
12C
100
AcDbEntity
  8
0
100
AcDbPoint
 62
256
 10
7590047.58999999985
 20
5727824.87000000011
  0
POINT
  5
12D
100
AcDbEntity
  8
0
100
AcDbPoint
 62
256
 10
7590038.74000000022
 20
5727829.09999999963
  0
POINT
  5
12E
100
AcDbEntity
  8
0
100
AcDbPoint
 62
256
 10
7590161.11000000034
 20
5728099.19000000041
  0
POINT
  5
12F
100
AcDbEntity
  8
0
100
AcDbPoint
 62
256
 10
7590011.74000000022
 20
5727834.04999999981
  0
POINT
  5
130
100
AcDbEntity
  8
0
100
AcDbPoint
 62
256
 10
7589937.26999999955
 20
5727668.75999999978
  0
POINT
  5
131
100
AcDbEntity
  8
0
100
AcDbPoint
 62
256
 10
7589942.41000000015
 20
5727666.30999999959
  0
POINT
  5
132
100
AcDbEntity
  8
0
100
AcDbPoint
 62
256
 10
7590035.76999999955
 20
5727822.45000000019
  0
POINT
  5
133
100
AcDbEntity
  8
0
100
AcDbPoint
 62
256
 10
7589961.84999999963
 20
5727657.12999999989
  0
POINT
  5
134
100
AcDbEntity
  8
0
100
AcDbPoint
 62
256
 10
7590044.70000000019
 20
5727818.13999999966
  0
POINT
  5
135
100
AcDbEntity
  8
0
100
AcDbPoint
 62
256
 10
7590035.76999999955
 20
5727822.45000000019
  0
POINT
  5
136
100
AcDbEntity
  8
0
100
AcDbPoint
 62
256
 10
7589970.53000000026
 20
5727653.01999999955
  0
POINT
  5
137
100
AcDbEntity
  8
0
100
AcDbPoint
 62
256
 10
7589961.84999999963
 20
5727657.12999999989
  0
POINT
  5
138
100
AcDbEntity
  8
0
100
AcDbPoint
 62
256
 10
7590035.76999999955
 20
5727822.45000000019
  0
POINT
  5
139
100
AcDbEntity
  8
0
100
AcDbPoint
 62
256
 10
7590325.33000000008
 20
5727687.21999999974
  0
POINT
  5
13A
100
AcDbEntity
  8
0
100
AcDbPoint
 62
256
 10
7590351.62000000011
 20
5727674.74000000022
  0
POINT
  5
13B
100
AcDbEntity
  8
0
100
AcDbPoint
 62
256
 10
7590472.01999999955
 20
5727957.75
  0
POINT
  5
13C
100
AcDbEntity
  8
0
100
AcDbPoint
 62
256
 10
7590446.44000000041
 20
5727963.29999999981
  0
POINT
  5
13D
100
AcDbEntity
  8
0
100
AcDbPoint
 62
256
 10
7590262.08000000007
 20
5727515.20999999996
  0
POINT
  5
13E
100
AcDbEntity
  8
0
100
AcDbPoint
 62
256
 10
7590278.45999999996
 20
5727507.5
  0
POINT
  5
13F
100
AcDbEntity
  8
0
100
AcDbPoint
 62
256
 10
7590348.79000000004
 20
5727668.26999999955
  0
POINT
  5
140
100
AcDbEntity
  8
0
100
AcDbPoint
 62
256
 10
7590322.5
 20
5727680.74000000022
  0
POINT
  5
141
100
AcDbEntity
  8
0
100
AcDbPoint
 62
256
 10
7590252.12000000011
 20
5727519.88999999966
  0
POINT
  5
142
100
AcDbEntity
  8
0
100
AcDbPoint
 62
256
 10
7590360.70999999996
 20
5727468.78000000026
  0
POINT
  5
143
100
AcDbEntity
  8
0
100
AcDbPoint
 62
256
 10
7590332.9299999997
 20
5727481.84999999963
  0
POINT
  5
144
100
AcDbEntity
  8
0
100
AcDbPoint
 62
256
 10
7590328.6799999997
 20
5727483.86000000034
  0
POINT
  5
145
100
AcDbEntity
  8
0
100
AcDbPoint
 62
256
 10
7590289.84999999963
 20
5727393.5
  0
POINT
  5
146
100
AcDbEntity
  8
0
100
AcDbPoint
 62
256
 10
7590317.55999999959
 20
5727380.50999999978
  0
POINT
  5
147
100
AcDbEntity
  8
0
100
AcDbPoint
 62
256
 10
7589598.98000000045
 20
5726586.78000000026
  0
POINT
  5
148
100
AcDbEntity
  8
0
100
AcDbPoint
 62
256
 10
7590002.28000000026
 20
5727276.8200000003
  0
POINT
  5
149
100
AcDbEntity
  8
0
100
AcDbPoint
 62
256
 10
7589986.99000000022
 20
5727284.25
  0
POINT
  5
14A
100
AcDbEntity
  8
0
100
AcDbPoint
 62
256
 10
7589585.37999999989
 20
5726595.54000000004
  0
POINT
  5
14B
100
AcDbEntity
  8
0
100
AcDbPoint
 62
256
 10
7589981.5
 20
5727286.91000000015
  0
POINT
  5
14C
100
AcDbEntity
  8
0
100
AcDbPoint
 62
256
 10
7589973.58999999985
 20
5727290.75999999978
  0
POINT
  5
14D
100
AcDbEntity
  8
0
100
AcDbPoint
 62
256
 10
7589971.79000000004
 20
5727291.62999999989
  0
POINT
  5
14E
100
AcDbEntity
  8
0
100
AcDbPoint
 62
256
 10
7589571.44000000041
 20
5726604.51999999955
  0
POINT
  5
14F
100
AcDbEntity
  8
0
100
AcDbPoint
 62
256
 10
7589582.33999999985
 20
5726597.50999999978
  0
POINT
  5
150
100
AcDbEntity
  8
0
100
AcDbPoint
 62
256
 10
7589598.97984857671
 20
5726586.78857978433
  0
POINT
  5
151
100
AcDbEntity
  8
0
100
AcDbPoint
 62
256
 10
7590002.27984787989
 20
5727276.82857833616
  0
POINT
  5
152
100
AcDbEntity
  8
0
100
AcDbPoint
 62
256
 10
7589986.98984790593
 20
5727284.25857832935
  0
POINT
  5
153
100
AcDbEntity
  8
0
100
AcDbPoint
 62
256
 10
7589585.37984860036
 20
5726595.548579772
  0
POINT
  5
154
100
AcDbEntity
  8
0
100
AcDbPoint
 62
256
 10
7589585.37984860036
 20
5726595.548579772
  0
POINT
  5
155
100
AcDbEntity
  8
0
100
AcDbPoint
 62
256
 10
7589986.98984790593
 20
5727284.25857832935
  0
POINT
  5
156
100
AcDbEntity
  8
0
100
AcDbPoint
 62
256
 10
7589981.49984791409
 20
5727286.91857832577
  0
POINT
  5
157
100
AcDbEntity
  8
0
100
AcDbPoint
 62
256
 10
7589973.58984792698
 20
5727290.76857832074
  0
POINT
  5
158
100
AcDbEntity
  8
0
100
AcDbPoint
 62
256
 10
7589971.78984793089
 20
5727291.63857831899
  0
POINT
  5
159
100
AcDbEntity
  8
0
100
AcDbPoint
 62
256
 10
7589571.43984862417
 20
5726604.52857976034
  0
POINT
  5
15A
100
AcDbEntity
  8
0
100
AcDbPoint
 62
256
 10
7589582.33984860498
 20
5726597.51857976988
  0
POINT
  5
15B
100
AcDbEntity
  8
0
100
AcDbPoint
 62
256
 10
7590220.85000201035
 20
5727425.85999978334
  0
POINT
  5
15C
100
AcDbEntity
  8
0
100
AcDbPoint
 62
256
 10
7590188.16000200994
 20
5727441.18999978341
  0
POINT
  5
15D
100
AcDbEntity
  8
0
100
AcDbPoint
 62
256
 10
7590165.7900020089
 20
5727451.67999978364
  0
POINT
  5
15E
100
AcDbEntity
  8
0
100
AcDbPoint
 62
256
 10
7590163.08000200894
 20
5727452.94999978226
  0
POINT
  5
15F
100
AcDbEntity
  8
0
100
AcDbPoint
 62
256
 10
7590155.3900020076
 20
5727456.55999977794
  0
POINT
  5
160
100
AcDbEntity
  8
0
100
AcDbPoint
 62
256
 10
7590123.23000200745
 20
5727471.62999978103
  0
POINT
  5
161
100
AcDbEntity
  8
0
100
AcDbPoint
 62
256
 10
7590095.99000200629
 20
5727484.40999978036
  0
POINT
  5
162
100
AcDbEntity
  8
0
100
AcDbPoint
 62
256
 10
7590068.46000200417
 20
5727497.31999978144
  0
POINT
  5
163
100
AcDbEntity
  8
0
100
AcDbPoint
 62
256
 10
7590026.5300020026
 20
5727516.97999978345
  0
POINT
  5
164
100
AcDbEntity
  8
0
100
AcDbPoint
 62
256
 10
7589994.48000200186
 20
5727532.00999978092
  0
POINT
  5
165
100
AcDbEntity
  8
0
100
AcDbPoint
 62
256
 10
7589961.730002
 20
5727547.44999978133
  0
POINT
  5
166
100
AcDbEntity
  8
0
100
AcDbPoint
 62
256
 10
7589954.13000199944
 20
5727551.02999978326
  0
POINT
  5
167
100
AcDbEntity
  8
0
100
AcDbPoint
 62
256
 10
7589930.16000199877
 20
5727562.33999978192
  0
POINT
  5
168
100
AcDbEntity
  8
0
100
AcDbPoint
 62
256
 10
7589898.23000199813
 20
5727577.38999978174
  0
POINT
  5
169
100
AcDbEntity
  8
0
100
AcDbPoint
 62
256
 10
7589856.80000199471
 20
5727596.92999978084
  0
POINT
  5
16A
100
AcDbEntity
  8
0
100
AcDbPoint
 62
256
 10
7589816.36000199337
 20
5727615.98999978416
  0
POINT
  5
16B
100
AcDbEntity
  8
0
100
AcDbPoint
 62
256
 10
7589795.84000199288
 20
5727625.68999978341
  0
POINT
  5
16C
100
AcDbEntity
  8
0
100
AcDbPoint
 62
256
 10
7589774.31000199169
 20
5727635.84999978077
  0
POINT
  5
16D
100
AcDbEntity
  8
0
100
AcDbPoint
 62
256
 10
7589774.05000199098
 20
5727631.54999978282
  0
POINT
  5
16E
100
AcDbEntity
  8
0
100
AcDbPoint
 62
256
 10
7589782.3600019915
 20
5727627.61999978218
  0
POINT
  5
16F
100
AcDbEntity
  8
0
100
AcDbPoint
 62
256
 10
7589814.29000199307
 20
5727612.54999978002
  0
POINT
  5
170
100
AcDbEntity
  8
0
100
AcDbPoint
 62
256
 10
7589826.42000199389
 20
5727606.82999978401
  0
POINT
  5
171
100
AcDbEntity
  8
0
100
AcDbPoint
 62
256
 10
7589839.45000199508
 20
5727600.68999978248
  0
POINT
  5
172
100
AcDbEntity
  8
0
100
AcDbPoint
 62
256
 10
7589846.24000199512
 20
5727597.49999978207
  0
POINT
  5
173
100
AcDbEntity
  8
0
100
AcDbPoint
 62
256
 10
7589853.02000199445
 20
5727594.29999978095
  0
POINT
  5
174
100
AcDbEntity
  8
0
100
AcDbPoint
 62
256
 10
7589859.82000199519
 20
5727591.08999978099
  0
POINT
  5
175
100
AcDbEntity
  8
0
100
AcDbPoint
 62
256
 10
7589867.05000199471
 20
5727587.68999978434
  0
POINT
  5
176
100
AcDbEntity
  8
0
100
AcDbPoint
 62
256
 10
7589876.55000199564
 20
5727583.2099997811
  0
POINT
  5
177
100
AcDbEntity
  8
0
100
AcDbPoint
 62
256
 10
7589885.06000199635
 20
5727579.19999978319
  0
POINT
  5
178
100
AcDbEntity
  8
0
100
AcDbPoint
 62
256
 10
7589894.28000199702
 20
5727574.86999978218
  0
POINT
  5
179
100
AcDbEntity
  8
0
100
AcDbPoint
 62
256
 10
7589900.80000199657
 20
5727571.78999978211
  0
POINT
  5
17A
100
AcDbEntity
  8
0
100
AcDbPoint
 62
256
 10
7589907.31000199635
 20
5727568.71999978274
  0
POINT
  5
17B
100
AcDbEntity
  8
0
100
AcDbPoint
 62
256
 10
7589914.28000199795
 20
5727565.43999978248
  0
POINT
  5
17C
100
AcDbEntity
  8
0
100
AcDbPoint
 62
256
 10
7589919.8000019975
 20
5727562.83999978192
  0
POINT
  5
17D
100
AcDbEntity
  8
0
100
AcDbPoint
 62
256
 10
7589934.0100019984
 20
5727556.13999977987
  0
POINT
  5
17E
100
AcDbEntity
  8
0
100
AcDbPoint
 62
256
 10
7589940.87000199873
 20
5727552.89999978151
  0
POINT
  5
17F
100
AcDbEntity
  8
0
100
AcDbPoint
 62
256
 10
7589948.03000199888
 20
5727549.53999978211
  0
POINT
  5
180
100
AcDbEntity
  8
0
100
AcDbPoint
 62
256
 10
7589955.08000199962
 20
5727546.20999978203
  0
POINT
  5
181
100
AcDbEntity
  8
0
100
AcDbPoint
 62
256
 10
7589961.50000199955
 20
5727543.18999978341
  0
POINT
  5
182
100
AcDbEntity
  8
0
100
AcDbPoint
 62
256
 10
7589968.57000199985
 20
5727539.85999978241
  0
POINT
  5
183
100
AcDbEntity
  8
0
100
AcDbPoint
 62
256
 10
7589974.73000200093
 20
5727536.95999978483
  0
POINT
  5
184
100
AcDbEntity
  8
0
100
AcDbPoint
 62
256
 10
7589981.60000200011
 20
5727533.71999978088
  0
POINT
  5
185
100
AcDbEntity
  8
0
100
AcDbPoint
 62
256
 10
7589988.39000200108
 20
5727530.51999978069
  0
POINT
  5
186
100
AcDbEntity
  8
0
100
AcDbPoint
 62
256
 10
7589995.09000200126
 20
5727527.36999978125
  0
POINT
  5
187
100
AcDbEntity
  8
0
100
AcDbPoint
 62
256
 10
7590001.52000200096
 20
5727524.35999978147
  0
POINT
  5
188
100
AcDbEntity
  8
0
100
AcDbPoint
 62
256
 10
7590028.6000020029
 20
5727511.64999978244
  0
POINT
  5
189
100
AcDbEntity
  8
0
100
AcDbPoint
 62
256
 10
7590032.8500020029
 20
5727509.65999978222
  0
POINT
  5
18A
100
AcDbEntity
  8
0
100
AcDbPoint
 62
256
 10
7590041.18000200391
 20
5727505.75999978185
  0
POINT
  5
18B
100
AcDbEntity
  8
0
100
AcDbPoint
 62
256
 10
7590055.85000200383
 20
5727498.86999978218
  0
POINT
  5
18C
100
AcDbEntity
  8
0
100
AcDbPoint
 62
256
 10
7590064.01000200398
 20
5727495.03999978118
  0
POINT
  5
18D
100
AcDbEntity
  8
0
100
AcDbPoint
 62
256
 10
7590068.72000200488
 20
5727492.82999978308
  0
POINT
  5
18E
100
AcDbEntity
  8
0
100
AcDbPoint
 62
256
 10
7590075.15000200551
 20
5727489.82999978214
  0
POINT
  5
18F
100
AcDbEntity
  8
0
100
AcDbPoint
 62
256
 10
7590087.84000200499
 20
5727483.86999978125
  0
POINT
  5
190
100
AcDbEntity
  8
0
100
AcDbPoint
 62
256
 10
7590095.44000200555
 20
5727480.29999978188
  0
POINT
  5
191
100
AcDbEntity
  8
0
100
AcDbPoint
 62
256
 10
7590121.09000200685
 20
5727468.26999978069
  0
POINT
  5
192
100
AcDbEntity
  8
0
100
AcDbPoint
 62
256
 10
7590131.79000200704
 20
5727463.25999978185
  0
POINT
  5
193
100
AcDbEntity
  8
0
100
AcDbPoint
 62
256
 10
7590136.50000200793
 20
5727461.04999978095
  0
POINT
  5
194
100
AcDbEntity
  8
0
100
AcDbPoint
 62
256
 10
7590158.6500020083
 20
5727450.65999978222
  0
POINT
  5
195
100
AcDbEntity
  8
0
100
AcDbPoint
 62
256
 10
7590162.34000200871
 20
5727448.91999978106
  0
POINT
  5
196
100
AcDbEntity
  8
0
100
AcDbPoint
 62
256
 10
7590260.62000201363
 20
5727402.81999978144
  0
POINT
  5
197
100
AcDbEntity
  8
0
100
AcDbPoint
 62
256
 10
7590273.30000201333
 20
5727396.87999978289
  0
POINT
  5
198
100
AcDbEntity
  8
0
100
AcDbPoint
 62
256
 10
7590285.9800020149
 20
5727390.93999978155
  0
POINT
  5
199
100
AcDbEntity
  8
0
100
AcDbPoint
 62
256
 10
7590289.60000201408
 20
5727389.23999978229
  0
POINT
  5
19A
100
AcDbEntity
  8
0
100
AcDbPoint
 62
256
 10
7590298.020002014
 20
5727385.28999978211
  0
POINT
  5
19B
100
AcDbEntity
  8
0
100
AcDbPoint
 62
256
 10
7590316.85000201594
 20
5727376.44999978133
  0
POINT
  5
19C
100
AcDbEntity
  8
0
100
AcDbPoint
 62
256
 10
7590333.42000201624
 20
5727368.66999978013
  0
POINT
  5
19D
100
AcDbEntity
  8
0
100
AcDbPoint
 62
256
 10
7590343.0200020168
 20
5727364.169999782
  0
POINT
  5
19E
100
AcDbEntity
  8
0
100
AcDbPoint
 62
256
 10
7590352.00000201724
 20
5727359.97999978159
  0
POINT
  5
19F
100
AcDbEntity
  8
0
100
AcDbPoint
 62
256
 10
7590360.50000201724
 20
5727355.97999978066
  0
POINT
  5
1A0
100
AcDbEntity
  8
0
100
AcDbPoint
 62
256
 10
7590369.74000201747
 20
5727351.64999978244
  0
POINT
  5
1A1
100
AcDbEntity
  8
0
100
AcDbPoint
 62
256
 10
7590373.18000201788
 20
5727350.0299997814
  0
POINT
  5
1A2
100
AcDbEntity
  8
0
100
AcDbPoint
 62
256
 10
7590376.62000201829
 20
5727348.41999978106
  0
POINT
  5
1A3
100
AcDbEntity
  8
0
100
AcDbPoint
 62
256
 10
7590379.98000201862
 20
5727346.83999977913
  0
POINT
  5
1A4
100
AcDbEntity
  8
0
100
AcDbPoint
 62
256
 10
7590387.49000201933
 20
5727343.31999978144
  0
POINT
  5
1A5
100
AcDbEntity
  8
0
100
AcDbPoint
 62
256
 10
7590394.28000201937
 20
5727340.12999978103
  0
POINT
  5
1A6
100
AcDbEntity
  8
0
100
AcDbPoint
 62
256
 10
7590402.34000201989
 20
5727336.35999977868
  0
POINT
  5
1A7
100
AcDbEntity
  8
0
100
AcDbPoint
 62
256
 10
7590946.19000204466
 20
5727080.16999978106
  0
POINT
  5
1A8
100
AcDbEntity
  8
0
100
AcDbPoint
 62
256
 10
7590984.4500020463
 20
5727062.30999977887
  0
POINT
  5
1A9
100
AcDbEntity
  8
0
100
AcDbPoint
 62
256
 10
7591032.78000204824
 20
5727039.75999977905
  0
POINT
  5
1AA
100
AcDbEntity
  8
0
100
AcDbPoint
 62
256
 10
7591035.71000204794
 20
5727042.79999977909
  0
POINT
  5
1AB
100
AcDbEntity
  8
0
100
AcDbPoint
 62
256
 10
7591000.43000204582
 20
5727059.25999977905
  0
POINT
  5
1AC
100
AcDbEntity
  8
0
100
AcDbPoint
 62
256
 10
7590954.03000204358
 20
5727080.89999978058
  0
POINT
  5
1AD
100
AcDbEntity
  8
0
100
AcDbPoint
 62
256
 10
7590929.50000204332
 20
5727092.44999978039
  0
POINT
  5
1AE
100
AcDbEntity
  8
0
100
AcDbPoint
 62
256
 10
7590890.5100020403
 20
5727110.82999977842
  0
POINT
  5
1AF
100
AcDbEntity
  8
0
100
AcDbPoint
 62
256
 10
7590853.96000203956
 20
5727128.03999977838
  0
POINT
  5
1B0
100
AcDbEntity
  8
0
100
AcDbPoint
 62
256
 10
7590836.77000203822
 20
5727136.13999977987
  0
POINT
  5
1B1
100
AcDbEntity
  8
0
100
AcDbPoint
 62
256
 10
7590801.66000203788
 20
5727152.67999978084
  0
POINT
  5
1B2
100
AcDbEntity
  8
0
100
AcDbPoint
 62
256
 10
7590768.46000203583
 20
5727168.31999978051
  0
POINT
  5
1B3
100
AcDbEntity
  8
0
100
AcDbPoint
 62
256
 10
7590736.35000203364
 20
5727183.44999978039
  0
POINT
  5
1B4
100
AcDbEntity
  8
0
100
AcDbPoint
 62
256
 10
7590704.58000203315
 20
5727198.40999978036
  0
POINT
  5
1B5
100
AcDbEntity
  8
0
100
AcDbPoint
 62
256
 10
7590687.57000203244
 20
5727206.41999978013
  0
POINT
  5
1B6
100
AcDbEntity
  8
0
100
AcDbPoint
 62
256
 10
7590671.83000203129
 20
5727213.82999977935
  0
POINT
  5
1B7
100
AcDbEntity
  8
0
100
AcDbPoint
 62
256
 10
7590639.63000203017
 20
5727229.00999977905
  0
POINT
  5
1B8
100
AcDbEntity
  8
0
100
AcDbPoint
 62
256
 10
7590617.73000202887
 20
5727239.31999977957
  0
POINT
  5
1B9
100
AcDbEntity
  8
0
100
AcDbPoint
 62
256
 10
7590607.06000202894
 20
5727244.34999977984
  0
POINT
  5
1BA
100
AcDbEntity
  8
0
100
AcDbPoint
 62
256
 10
7590541.37000202574
 20
5727275.28999978025
  0
POINT
  5
1BB
100
AcDbEntity
  8
0
100
AcDbPoint
 62
256
 10
7590510.88000202458
 20
5727289.64999978058
  0
POINT
  5
1BC
100
AcDbEntity
  8
0
100
AcDbPoint
 62
256
 10
7590490.80000202265
 20
5727299.11999978032
  0
POINT
  5
1BD
100
AcDbEntity
  8
0
100
AcDbPoint
 62
256
 10
7590480.57000202313
 20
5727303.919999782
  0
POINT
  5
1BE
100
AcDbEntity
  8
0
100
AcDbPoint
 62
256
 10
7590412.99000202026
 20
5727335.75999977998
  0
POINT
  5
1BF
100
AcDbEntity
  8
0
100
AcDbPoint
 62
256
 10
7590381.12000201922
 20
5727350.69999978133
  0
POINT
  5
1C0
100
AcDbEntity
  8
0
100
AcDbPoint
 62
256
 10
7590349.61000201758
 20
5727365.47999978066
  0
POINT
  5
1C1
100
AcDbEntity
  8
0
100
AcDbPoint
 62
256
 10
7590286.2300020149
 20
5727395.2099997811
  0
POINT
  5
1C2
100
AcDbEntity
  8
0
100
AcDbPoint
 62
256
 10
7590253.90000201296
 20
5727410.35999978054
  0
POINT
  5
1C3
100
AcDbEntity
  8
0
100
AcDbPoint
 62
256
 10
7592410.95000211336
 20
5725312.90999977198
  0
POINT
  5
1C4
100
AcDbEntity
  8
0
100
AcDbPoint
 62
256
 10
7592421.91000211332
 20
5725311.98999977391
  0
POINT
  5
1C5
100
AcDbEntity
  8
0
100
AcDbPoint
 62
256
 10
7592380.46000211313
 20
5724807.84999976866
  0
POINT
  5
1C6
100
AcDbEntity
  8
0
100
AcDbPoint
 62
256
 10
7592391.62000211328
 20
5724806.87999976892
  0
POINT
  5
1C7
100
AcDbEntity
  8
0
100
AcDbPoint
 62
256
 10
7592443.62000211515
 20
5725431.53999977466
  0
POINT
  5
1C8
100
AcDbEntity
  8
0
100
AcDbPoint
 62
256
 10
7592421.45000211336
 20
5725440.9299997706
  0
POINT
  5
1C9
100
AcDbEntity
  8
0
100
AcDbPoint
 62
256
 10
7592410.95000000019
 20
5725312.91000000015
  0
POINT
  5
1CA
100
AcDbEntity
  8
0
100
AcDbPoint
 62
256
 10
7592421.91000000015
 20
5725311.99000000022
  0
POINT
  5
1CB
100
AcDbEntity
  8
0
100
AcDbPoint
 62
256
 10
7592380.45999999996
 20
5724807.84999999963
  0
POINT
  5
1CC
100
AcDbEntity
  8
0
100
AcDbPoint
 62
256
 10
7592391.62000000011
 20
5724806.87999999989
  0
POINT
  5
1CD
100
AcDbEntity
  8
0
100
AcDbPoint
 62
256
 10
7592443.62000000011
 20
5725431.54000000004
  0
POINT
  5
1CE
100
AcDbEntity
  8
0
100
AcDbPoint
 62
256
 10
7592421.45000000019
 20
5725440.9299999997
  0
TEXT
  5
1CF
100
AcDbEntity
  8
CZERWONY
370
20
100
AcDbText
 10
7590324.53000201657
 20
5727431.18499978166
 40
1.00
  1
189
 50
0.00
 41
0.66
  7
STANDARD
 72
1
 11
7590325.28000201657
 21
5727432.18499978166
100
AcDbText
 73
3
  0
TEXT
  5
1D0
100
AcDbEntity
  8
CZERWONY
370
20
100
AcDbText
 10
7590170.69500200916
 20
5727319.2099997811
 40
1.00
  1
291
 50
0.00
 41
0.66
  7
STANDARD
 72
1
 11
7590171.44500200916
 21
5727320.2099997811
100
AcDbText
 73
3
  0
TEXT
  5
1D1
100
AcDbEntity
  8
0
370
20
100
AcDbText
 10
7590299.70500201453
 20
5727593.11999978311
 40
1.00
  1
137
 50
0.00
 41
0.66
  7
STANDARD
 72
1
 11
7590300.45500201452
 21
5727594.11999978311
100
AcDbText
 73
3
  0
TEXT
  5
1D2
100
AcDbEntity
  8
0
370
20
100
AcDbText
 10
7590398.17500201799
 20
5727818.01999978256
 40
1.00
  1
55
 50
0.00
 41
0.66
  7
STANDARD
 72
1
 11
7590398.67500201799
 21
5727819.01999978255
100
AcDbText
 73
3
  0
TEXT
  5
1D3
100
AcDbEntity
  8
0
370
20
100
AcDbText
 10
7590324.53000201657
 20
5727431.18499978166
 40
1.00
  1
189
 50
0.00
 41
0.66
  7
STANDARD
 72
1
 11
7590325.28000201657
 21
5727432.18499978166
100
AcDbText
 73
3
  0
TEXT
  5
1D4
100
AcDbEntity
  8
0
370
20
100
AcDbText
 10
7590087.29500200413
 20
5727971.70999978296
 40
1.00
  1
40
 50
0.00
 41
0.66
  7
STANDARD
 72
1
 11
7590087.79500200413
 21
5727972.70999978296
100
AcDbText
 73
3
  0
TEXT
  5
1D5
100
AcDbEntity
  8
0
370
20
100
AcDbText
 10
7590103.52000200562
 20
5727961.02999978419
 40
1.00
  1
41
 50
0.00
 41
0.66
  7
STANDARD
 72
1
 11
7590104.02000200562
 21
5727962.02999978419
100
AcDbText
 73
3
  0
TEXT
  5
1D6
100
AcDbEntity
  8
0
370
20
100
AcDbText
 10
7589985.77000200003
 20
5727744.58999978192
 40
1.00
  1
120
 50
0.00
 41
0.66
  7
STANDARD
 72
1
 11
7589986.52000200003
 21
5727745.58999978192
100
AcDbText
 73
3
  0
TEXT
  5
1D7
100
AcDbEntity
  8
0
370
20
100
AcDbText
 10
7590002.52500200178
 20
5727736.73499978241
 40
1.00
  1
121
 50
0.00
 41
0.66
  7
STANDARD
 72
1
 11
7590003.27500200178
 21
5727737.73499978241
100
AcDbText
 73
3
  0
TEXT
  5
1D8
100
AcDbEntity
  8
0
370
20
100
AcDbText
 10
7589793.08000199404
 20
5726934.5149997808
 40
1.00
  1
334
 50
0.00
 41
0.66
  7
STANDARD
 72
1
 11
7589793.83000199404
 21
5726935.5149997808
100
AcDbText
 73
3
  0
TEXT
  5
1D9
100
AcDbEntity
  8
0
370
20
100
AcDbText
 10
7589778.46500199288
 20
5726942.58499978017
 40
1.00
  1
333
 50
0.00
 41
0.66
  7
STANDARD
 72
1
 11
7589779.21500199288
 21
5726943.58499978017
100
AcDbText
 73
3
  0
TEXT
  5
1DA
100
AcDbEntity
  8
0
 62
96
370
25
100
AcDbText
 10
7589795.00853047427
 20
5726938.5919724321
 40
1.25
  1
334
 50
0.00
 41
0.66
  7
STANDARD
 72
0
 11
7589795.00853047427
 21
5726938.17530576512
100
AcDbText
 73
1
  0
TEXT
  5
1DB
100
AcDbEntity
  8
0
 62
96
370
25
100
AcDbText
 10
7589779.46952709462
 20
5726944.96395596582
 40
1.25
  1
333
 50
0.00
 41
0.66
  7
STANDARD
 72
0
 11
7589779.46952709462
 21
5726944.54728929885
100
AcDbText
 73
1
  0
TEXT
  5
1DC
100
AcDbEntity
  8
0
370
20
100
AcDbText
 10
7589793.07984824013
 20
5726934.52357905731
 40
1.00
  1
334
 50
0.00
 41
0.66
  7
STANDARD
 72
1
 11
7589793.82984824013
 21
5726935.52357905731
100
AcDbText
 73
3
  0
TEXT
  5
1DD
100
AcDbEntity
  8
0
370
20
100
AcDbText
 10
7589778.46484826505
 20
5726942.5935790455
 40
1.00
  1
333
 50
0.00
 41
0.66
  7
STANDARD
 72
1
 11
7589779.21484826505
 21
5726943.5935790455
100
AcDbText
 73
3
  0
TEXT
  5
1DE
100
AcDbEntity
  8
0
370
20
100
AcDbText
 10
7590404.13000201993
 20
5727336.80499977991
 40
1.00
  1
404
 50
0.00
 41
0.66
  7
STANDARD
 72
1
 11
7590404.88000201993
 21
5727337.80499977991
100
AcDbText
 73
3
  0
TEXT
  5
1DF
100
AcDbEntity
  8
0
370
20
100
AcDbText
 10
7592411.04000211414
 20
5725122.90499977022
 40
1.00
  1
1051
 50
0.00
 41
0.66
  7
STANDARD
 72
1
 11
7592412.04000211414
 21
5725123.90499977022
100
AcDbText
 73
3
  0
ENDSEC
  0
SECTION
  2
OBJECTS
  0
DICTIONARY
  5
1E0
330
0
100
AcDbDictionary
280
0
281
1
  3
ACAD_GROUP
350
1E1
  3
ACAD_LAYOUT
350
1E2
  3
ACAD_MLINESTYLE
350
1E3
  3
ACAD_PLOTSETTINGS
350
1E4
  3
ACAD_PLOTSTYLENAME
350
1E5
  3
ACAD_WIPEOUT_VARS
350
1E6
  0
DICTIONARY
  5
1E1
102
{ACAD_REACTORS
330
1E0
102
}
330
1E0
100
AcDbDictionary
280
0
281
1
  0
DICTIONARY
  5
1E2
102
{ACAD_REACTORS
330
1E0
102
}
330
1E0
100
AcDbDictionary
280
0
281
1
  3
Layout
350
18
  3
Model
350
16
  0
DICTIONARY
  5
1E3
102
{ACAD_REACTORS
330
1E0
102
}
330
1E0
100
AcDbDictionary
280
0
281
1
  3
Standard
350
1E7
  0
DICTIONARY
  5
1E4
102
{ACAD_REACTORS
330
1E0
102
}
330
1E0
100
AcDbDictionary
280
0
281
1
  0
ACDBDICTIONARYWDFLT
  5
1E5
102
{ACAD_REACTORS
330
1E0
102
}
330
1E0
100
AcDbDictionary
281
1
  3
Normal
350
9
100
AcDbDictionaryWithDefault
340
9
  0
WIPEOUTVARIABLES
  5
1E6
102
{ACAD_REACTORS
330
1E0
102
}
330
1E0
100
AcDbWipeoutVariables
 70
0
  0
LAYOUT
  5
18
100
AcDbPlotSettings
  1

  2

  4

  6

 40
0.0
 41
0.0
 42
0.0
 43
0.0
 44
0.0
 45
0.0
 46
0.0
 47
0.0
 48
0.0
 49
0.0
140
0.0
141
0.0
142
1.0
143
1.0
 70
688
 72
1
 73
0
 74
5
  7

 75
0
147
1.0
148
0.0
149
0.0
100
AcDbLayout
  1
Layout
 70
1
 71
1
 10
0.0
 20
0.0
 11
420.0
 21
297.0
 12
0.0
 22
0.0
 32
0.0
 14
100000000000000000000.0
 24
100000000000000000000.0
 34
100000000000000000000.0
 15
-100000000000000000000.0
 25
-100000000000000000000.0
 35
-100000000000000000000.0
146
0.0
 13
0.0
 23
0.0
 33
0.0
 16
1.0
 26
0.0
 36
0.0
 17
0.0
 27
1.0
 37
0.0
 76
0
330
17
  0
LAYOUT
  5
16
100
AcDbPlotSettings
  1

  2

  4

  6

 40
0.0
 41
0.0
 42
0.0
 43
0.0
 44
0.0
 45
0.0
 46
0.0
 47
0.0
 48
0.0
 49
0.0
140
0.0
141
0.0
142
1.0
143
1.0
 70
1712
 72
1
 73
0
 74
0
  7

 75
0
147
1.0
148
0.0
149
0.0
100
AcDbLayout
  1
Model
 70
1
 71
0
 10
0.0
 20
0.0
 11
12.0
 21
9.0
 12
0.0
 22
0.0
 32
0.0
 14
0.0
 24
0.0
 34
0.0
 15
0.0
 25
0.0
 35
0.0
146
0.0
 13
0.0
 23
0.0
 33
0.0
 16
1.0
 26
0.0
 36
0.0
 17
0.0
 27
1.0
 37
0.0
 76
0
330
15
  0
MLINESTYLE
  5
1E7
102
{ACAD_REACTORS
330
1E3
102
}
330
1E3
100
AcDbMlineStyle
  2
Standard
 70
0
  3

 62
256
 51
90.0
 52
90.0
  2
Standard
 71
2
 49
0.5
 62
256
  6
ByLayer
 49
-0.5
 62
256
  6
ByLayer
  0
ACDBPLACEHOLDER
  5
9
  0
ENDSEC
  0
EOF
